ISO-10303-21;
HEADER;
FILE_DESCRIPTION (( 'STEP AP203' ),
    '1' );
FILE_NAME ('QB-CTZQWP-50.8-852-M.STEP',
    '2020-12-24T01:53:15',
    ( '' ),
    ( '' ),
    'SwSTEP 2.0',
    'SolidWorks 2020',
    '' );
FILE_SCHEMA (( 'CONFIG_CONTROL_DESIGN' ));
ENDSEC;

DATA;
#1 = COORDINATED_UNIVERSAL_TIME_OFFSET ( 8, 0, .AHEAD. ) ;
#2 = EDGE_CURVE ( 'NONE', #6, #52, #145, .T. ) ;
#3 =( GEOMETRIC_REPRESENTATION_CONTEXT ( 3 ) GLOBAL_UNCERTAINTY_ASSIGNED_CONTEXT ( ( #104 ) ) GLOBAL_UNIT_ASSIGNED_CONTEXT ( ( #12, #117, #151 ) ) REPRESENTATION_CONTEXT ( 'NONE', 'WORKASPACE' ) );
#4 = DATE_AND_TIME ( #5, #8 ) ;
#5 = CALENDAR_DATE ( 2020, 24, 12 ) ;
#6 = VERTEX_POINT ( 'NONE', #35 ) ;
#7 = APPLICATION_CONTEXT ( 'configuration controlled 3d designs of mechanical parts and assemblies' ) ;
#8 = LOCAL_TIME ( 9, 53, 15.00000000000000000, #109 ) ;
#9 = CARTESIAN_POINT ( 'NONE',  ( 3.000000000000002665, 0.000000000000000000, 25.39999999999999858 ) ) ;
#10 = DIRECTION ( 'NONE',  ( -1.000000000000000000, 0.000000000000000000, -0.000000000000000000 ) ) ;
#11 = CIRCLE ( 'NONE', #78, 25.39999999999999858 ) ;
#12 =( LENGTH_UNIT ( ) NAMED_UNIT ( * ) SI_UNIT ( .MILLI., .METRE. ) );
#13 = DIRECTION ( 'NONE',  ( -0.000000000000000000, 0.000000000000000000, 1.000000000000000000 ) ) ;
#14 = DATE_AND_TIME ( #120, #167 ) ;
#15 = DATE_AND_TIME ( #30, #125 ) ;
#16 = COORDINATED_UNIVERSAL_TIME_OFFSET ( 8, 0, .AHEAD. ) ;
#17 = VECTOR ( 'NONE', #100, 1000.000000000000000 ) ;
#18 = MANIFOLD_SOLID_BREP ( 'Ðý×', #93 ) ;
#19 = DIRECTION ( 'NONE',  ( -1.000000000000000000, -0.000000000000000000, -0.000000000000000000 ) ) ;
#20 = ORGANIZATION ( 'UNSPECIFIED', 'UNSPECIFIED', '' ) ;
#21 = EDGE_LOOP ( 'NONE', ( #89, #102 ) ) ;
#22 = APPROVAL_PERSON_ORGANIZATION ( #136, #98, #59 ) ;
#23 = CARTESIAN_POINT ( 'NONE',  ( -3.000000000000000000, 0.000000000000000000, 25.39999999999999858 ) ) ;
#24 = DIRECTION ( 'NONE',  ( -1.000000000000000000, -0.000000000000000000, -0.000000000000000000 ) ) ;
#25 = CARTESIAN_POINT ( 'NONE',  ( -3.000000000000002665, 0.000000000000000000, 0.000000000000000000 ) ) ;
#26 = PRODUCT ( 'QB-CTZQWP-50.8-852-M', 'QB-CTZQWP-50.8-852-M', '', ( #84 ) ) ;
#27 = CARTESIAN_POINT ( 'NONE',  ( 3.000000000000001332, 25.39999999999999858, 0.000000000000000000 ) ) ;
#28 = ADVANCED_FACE ( 'NONE', ( #48 ), #61, .T. ) ;
#29 = PERSON_AND_ORGANIZATION_ROLE ( 'creator' ) ;
#30 = CALENDAR_DATE ( 2020, 24, 12 ) ;
#31 = PERSON_AND_ORGANIZATION_ROLE ( 'design_supplier' ) ;
#32 = CC_DESIGN_PERSON_AND_ORGANIZATION_ASSIGNMENT ( #58, #95, ( #26 ) ) ;
#33 = APPROVAL_ROLE ( '' ) ;
#34 = LOCAL_TIME ( 9, 53, 15.00000000000000000, #16 ) ;
#35 = CARTESIAN_POINT ( 'NONE',  ( 3.000000000000002665, 3.110602869834276865E-15, -25.39999999999999858 ) ) ;
#36 = CC_DESIGN_PERSON_AND_ORGANIZATION_ASSIGNMENT ( #94, #29, ( #161 ) ) ;
#37 = DIRECTION ( 'NONE',  ( 0.000000000000000000, 0.000000000000000000, 1.000000000000000000 ) ) ;
#38 = PRODUCT_RELATED_PRODUCT_CATEGORY ( 'detail', '', ( #26 ) ) ;
#39 = PLANE ( 'NONE',  #54 ) ;
#40 = DIRECTION ( 'NONE',  ( 0.000000000000000000, 0.000000000000000000, 1.000000000000000000 ) ) ;
#41 = CARTESIAN_POINT ( 'NONE',  ( 3.000000000000002665, 0.000000000000000000, 0.000000000000000000 ) ) ;
#42 = LOCAL_TIME ( 9, 53, 15.00000000000000000, #157 ) ;
#43 = CC_DESIGN_DATE_AND_TIME_ASSIGNMENT ( #73, #71, ( #172 ) ) ;
#44 = APPROVAL_DATE_TIME ( #105, #122 ) ;
#45 = APPROVAL_STATUS ( 'not_yet_approved' ) ;
#46 = CALENDAR_DATE ( 2020, 24, 12 ) ;
#47 = SECURITY_CLASSIFICATION_LEVEL ( 'unclassified' ) ;
#48 = FACE_OUTER_BOUND ( 'NONE', #127, .T. ) ;
#49 = ADVANCED_FACE ( 'NONE', ( #164 ), #135, .T. ) ;
#50 = EDGE_LOOP ( 'NONE', ( #77, #75 ) ) ;
#51 = AXIS2_PLACEMENT_3D ( 'NONE', #41, #166, #133 ) ;
#52 = VERTEX_POINT ( 'NONE', #90 ) ;
#53 = PLANE ( 'NONE',  #76 ) ;
#54 = AXIS2_PLACEMENT_3D ( 'NONE', #27, #10, #13 ) ;
#55 = CARTESIAN_POINT ( 'NONE',  ( -3.000000000000000000, 0.000000000000000000, 0.000000000000000000 ) ) ;
#56 = EDGE_CURVE ( 'NONE', #162, #160, #57, .T. ) ;
#57 = LINE ( 'NONE', #23, #63 ) ;
#58 = PERSON_AND_ORGANIZATION ( #110, #20 ) ;
#59 = APPROVAL_ROLE ( '' ) ;
#60 = APPLICATION_PROTOCOL_DEFINITION ( 'international standard', 'config_control_design', 1994, #7 ) ;
#61 = CYLINDRICAL_SURFACE ( 'NONE', #169, 25.39999999999999858 ) ;
#62 = ORIENTED_EDGE ( 'NONE', *, *, #97, .T. ) ;
#63 = VECTOR ( 'NONE', #131, 1000.000000000000000 ) ;
#64 = ORIENTED_EDGE ( 'NONE', *, *, #128, .F. ) ;
#65 = CARTESIAN_POINT ( 'NONE',  ( -3.000000000000002665, 0.000000000000000000, 25.39999999999999858 ) ) ;
#66 = PRODUCT_DEFINITION_SHAPE ( 'NONE', 'NONE',  #161 ) ;
#67 = CIRCLE ( 'NONE', #51, 25.39999999999999858 ) ;
#68 = APPROVAL ( #88, 'UNSPECIFIED' ) ;
#69 = DATE_TIME_ROLE ( 'creation_date' ) ;
#70 = CARTESIAN_POINT ( 'NONE',  ( 0.000000000000000000, 0.000000000000000000, 0.000000000000000000 ) ) ;
#71 = DATE_TIME_ROLE ( 'classification_date' ) ;
#72 = AXIS2_PLACEMENT_3D ( 'NONE', #55, #165, #40 ) ;
#73 = DATE_AND_TIME ( #108, #34 ) ;
#74 = DIRECTION ( 'NONE',  ( 0.000000000000000000, 0.000000000000000000, 1.000000000000000000 ) ) ;
#75 = ORIENTED_EDGE ( 'NONE', *, *, #149, .F. ) ;
#76 = AXIS2_PLACEMENT_3D ( 'NONE', #147, #91, #163 ) ;
#77 = ORIENTED_EDGE ( 'NONE', *, *, #97, .F. ) ;
#78 = AXIS2_PLACEMENT_3D ( 'NONE', #148, #79, #81 ) ;
#79 = DIRECTION ( 'NONE',  ( -1.000000000000000000, -0.000000000000000000, -0.000000000000000000 ) ) ;
#80 = ADVANCED_FACE ( 'NONE', ( #82 ), #39, .F. ) ;
#81 = DIRECTION ( 'NONE',  ( 0.000000000000000000, 0.000000000000000000, 1.000000000000000000 ) ) ;
#82 = FACE_OUTER_BOUND ( 'NONE', #50, .T. ) ;
#83 = FACE_OUTER_BOUND ( 'NONE', #21, .T. ) ;
#84 = MECHANICAL_CONTEXT ( 'NONE', #144, 'mechanical' ) ;
#85 = CC_DESIGN_SECURITY_CLASSIFICATION ( #172, ( #118 ) ) ;
#86 = PERSON_AND_ORGANIZATION_ROLE ( 'classification_officer' ) ;
#87 = APPROVAL_PERSON_ORGANIZATION ( #126, #68, #33 ) ;
#88 = APPROVAL_STATUS ( 'not_yet_approved' ) ;
#89 = ORIENTED_EDGE ( 'NONE', *, *, #128, .T. ) ;
#90 = CARTESIAN_POINT ( 'NONE',  ( -3.000000000000002665, 3.110602869834276865E-15, -25.39999999999999858 ) ) ;
#91 = DIRECTION ( 'NONE',  ( 1.000000000000000000, 0.000000000000000000, 0.000000000000000000 ) ) ;
#92 = DIRECTION ( 'NONE',  ( -1.000000000000000000, -0.000000000000000000, -0.000000000000000000 ) ) ;
#93 = CLOSED_SHELL ( 'NONE', ( #28, #49, #80, #143 ) ) ;
#94 = PERSON_AND_ORGANIZATION ( #110, #20 ) ;
#95 = PERSON_AND_ORGANIZATION_ROLE ( 'design_owner' ) ;
#96 = AXIS2_PLACEMENT_3D ( 'NONE', #70, #153, #156 ) ;
#97 = EDGE_CURVE ( 'NONE', #162, #6, #67, .T. ) ;
#98 = APPROVAL ( #45, 'UNSPECIFIED' ) ;
#99 = APPROVAL_DATE_TIME ( #15, #98 ) ;
#100 = DIRECTION ( 'NONE',  ( -1.000000000000000000, -0.000000000000000000, -0.000000000000000000 ) ) ;
#101 = CC_DESIGN_PERSON_AND_ORGANIZATION_ASSIGNMENT ( #137, #86, ( #172 ) ) ;
#102 = ORIENTED_EDGE ( 'NONE', *, *, #134, .T. ) ;
#103 = ORIENTED_EDGE ( 'NONE', *, *, #2, .F. ) ;
#104 = UNCERTAINTY_MEASURE_WITH_UNIT (LENGTH_MEASURE( 1.000000000000000082E-05 ), #12, 'distance_accuracy_value', 'NONE');
#105 = DATE_AND_TIME ( #46, #42 ) ;
#106 = PERSON_AND_ORGANIZATION ( #110, #20 ) ;
#107 = APPROVAL_STATUS ( 'not_yet_approved' ) ;
#108 = CALENDAR_DATE ( 2020, 24, 12 ) ;
#109 = COORDINATED_UNIVERSAL_TIME_OFFSET ( 8, 0, .AHEAD. ) ;
#110 = PERSON ( 'UNSPECIFIED', 'UNSPECIFIED', 'UNSPECIFIED', ('UNSPECIFIED'), ('UNSPECIFIED'), ('UNSPECIFIED') ) ;
#111 = CC_DESIGN_APPROVAL ( #98, ( #118 ) ) ;
#112 = ORIENTED_EDGE ( 'NONE', *, *, #56, .F. ) ;
#113 = ORIENTED_EDGE ( 'NONE', *, *, #56, .T. ) ;
#114 = AXIS2_PLACEMENT_3D ( 'NONE', #25, #92, #132 ) ;
#115 = CARTESIAN_POINT ( 'NONE',  ( -3.000000000000000000, 3.110602869834276865E-15, -25.39999999999999858 ) ) ;
#116 = ADVANCED_BREP_SHAPE_REPRESENTATION ( 'QB-CTZQWP-50.8-852-M', ( #18, #96 ), #3 ) ;
#117 =( NAMED_UNIT ( * ) PLANE_ANGLE_UNIT ( ) SI_UNIT ( $, .RADIAN. ) );
#118 = PRODUCT_DEFINITION_FORMATION_WITH_SPECIFIED_SOURCE ( 'ANY', '', #26, .NOT_KNOWN. ) ;
#119 = CIRCLE ( 'NONE', #175, 25.39999999999999858 ) ;
#120 = CALENDAR_DATE ( 2020, 24, 12 ) ;
#121 = PERSON_AND_ORGANIZATION ( #110, #20 ) ;
#122 = APPROVAL ( #107, 'UNSPECIFIED' ) ;
#123 = APPROVAL_DATE_TIME ( #4, #68 ) ;
#124 = PERSON_AND_ORGANIZATION ( #110, #20 ) ;
#125 = LOCAL_TIME ( 9, 53, 15.00000000000000000, #168 ) ;
#126 = PERSON_AND_ORGANIZATION ( #110, #20 ) ;
#127 = EDGE_LOOP ( 'NONE', ( #62, #173, #64, #112 ) ) ;
#128 = EDGE_CURVE ( 'NONE', #160, #52, #11, .T. ) ;
#129 = ORIENTED_EDGE ( 'NONE', *, *, #149, .T. ) ;
#130 = CC_DESIGN_DATE_AND_TIME_ASSIGNMENT ( #14, #69, ( #161 ) ) ;
#131 = DIRECTION ( 'NONE',  ( -1.000000000000000000, -0.000000000000000000, -0.000000000000000000 ) ) ;
#132 = DIRECTION ( 'NONE',  ( 0.000000000000000000, 0.000000000000000000, 1.000000000000000000 ) ) ;
#133 = DIRECTION ( 'NONE',  ( 0.000000000000000000, 0.000000000000000000, 1.000000000000000000 ) ) ;
#134 = EDGE_CURVE ( 'NONE', #52, #160, #155, .T. ) ;
#135 = CYLINDRICAL_SURFACE ( 'NONE', #72, 25.39999999999999858 ) ;
#136 = PERSON_AND_ORGANIZATION ( #110, #20 ) ;
#137 = PERSON_AND_ORGANIZATION ( #110, #20 ) ;
#138 = APPLICATION_PROTOCOL_DEFINITION ( 'international standard', 'config_control_design', 1994, #144 ) ;
#139 = PERSON_AND_ORGANIZATION_ROLE ( 'creator' ) ;
#140 = CC_DESIGN_APPROVAL ( #122, ( #161 ) ) ;
#141 = CC_DESIGN_PERSON_AND_ORGANIZATION_ASSIGNMENT ( #124, #31, ( #118 ) ) ;
#142 = CARTESIAN_POINT ( 'NONE',  ( -3.000000000000000000, 0.000000000000000000, 0.000000000000000000 ) ) ;
#143 = ADVANCED_FACE ( 'NONE', ( #83 ), #53, .F. ) ;
#144 = APPLICATION_CONTEXT ( 'configuration controlled 3d designs of mechanical parts and assemblies' ) ;
#145 = LINE ( 'NONE', #115, #17 ) ;
#146 = EDGE_LOOP ( 'NONE', ( #103, #129, #113, #159 ) ) ;
#147 = CARTESIAN_POINT ( 'NONE',  ( -3.000000000000001332, 25.39999999999999858, 0.000000000000000000 ) ) ;
#148 = CARTESIAN_POINT ( 'NONE',  ( -3.000000000000002665, 0.000000000000000000, 0.000000000000000000 ) ) ;
#149 = EDGE_CURVE ( 'NONE', #6, #162, #119, .T. ) ;
#150 = CARTESIAN_POINT ( 'NONE',  ( 3.000000000000002665, 0.000000000000000000, 0.000000000000000000 ) ) ;
#151 =( NAMED_UNIT ( * ) SI_UNIT ( $, .STERADIAN. ) SOLID_ANGLE_UNIT ( ) );
#152 = APPROVAL_PERSON_ORGANIZATION ( #106, #122, #170 ) ;
#153 = DIRECTION ( 'NONE',  ( 0.000000000000000000, 0.000000000000000000, 1.000000000000000000 ) ) ;
#154 = CC_DESIGN_PERSON_AND_ORGANIZATION_ASSIGNMENT ( #121, #139, ( #118 ) ) ;
#155 = CIRCLE ( 'NONE', #114, 25.39999999999999858 ) ;
#156 = DIRECTION ( 'NONE',  ( 1.000000000000000000, 0.000000000000000000, 0.000000000000000000 ) ) ;
#157 = COORDINATED_UNIVERSAL_TIME_OFFSET ( 8, 0, .AHEAD. ) ;
#158 = CC_DESIGN_APPROVAL ( #68, ( #172 ) ) ;
#159 = ORIENTED_EDGE ( 'NONE', *, *, #134, .F. ) ;
#160 = VERTEX_POINT ( 'NONE', #65 ) ;
#161 = PRODUCT_DEFINITION ( 'UNKNOWN', '', #118, #174 ) ;
#162 = VERTEX_POINT ( 'NONE', #9 ) ;
#163 = DIRECTION ( 'NONE',  ( 0.000000000000000000, 0.000000000000000000, -1.000000000000000000 ) ) ;
#164 = FACE_OUTER_BOUND ( 'NONE', #146, .T. ) ;
#165 = DIRECTION ( 'NONE',  ( -1.000000000000000000, -0.000000000000000000, -0.000000000000000000 ) ) ;
#166 = DIRECTION ( 'NONE',  ( -1.000000000000000000, -0.000000000000000000, -0.000000000000000000 ) ) ;
#167 = LOCAL_TIME ( 9, 53, 15.00000000000000000, #1 ) ;
#168 = COORDINATED_UNIVERSAL_TIME_OFFSET ( 8, 0, .AHEAD. ) ;
#169 = AXIS2_PLACEMENT_3D ( 'NONE', #142, #19, #74 ) ;
#170 = APPROVAL_ROLE ( '' ) ;
#171 = SHAPE_DEFINITION_REPRESENTATION ( #66, #116 ) ;
#172 = SECURITY_CLASSIFICATION ( '', '', #47 ) ;
#173 = ORIENTED_EDGE ( 'NONE', *, *, #2, .T. ) ;
#174 = DESIGN_CONTEXT ( 'detailed design', #7, 'design' ) ;
#175 = AXIS2_PLACEMENT_3D ( 'NONE', #150, #24, #37 ) ;
ENDSEC;
END-ISO-10303-21;
